Clubnypian

Share your experience through our Community
 
HomeGalleryFAQSearchMemberlistRegisterLog in
Log in
Username:
Password:
Log in automatically: 
:: I forgot my password
Who is online?
In total there are 4 users online :: 0 Registered, 0 Hidden and 4 Guests

None

Most users ever online was 19 on Tue May 12, 2009 7:53 am
Top posters
Admin
 
eintchu
 
S_M
 
one
 
yks
 
naymoekyal
 
PawThwut
 
Sawyer
 
naing.lynn
 
tutpi
 
Affiliates


$50 Free Chip Special
 

Share | 
 

 for guitar players,,,

Go down 
AuthorMessage
michael
Fresher
Fresher


Male
Number of posts : 2
Age : 28
Location : Singapore
Registration date : 2008-04-28

PostSubject: for guitar players,,,   Wed Jul 09, 2008 1:55 pm

I dun know whether u'll guys have known how to play,,,but plzz..let me just post,,cos' i dun have any to post...this is my first posting

Apologize

APOLOGIZE
V.I: I'm holding on your rope,
Got me ten feet off the ground
I'm hearin what you say but I just can't make a sound
You tell me that you need me
Then you go and cut me down, but wait
You tell me that you're sorry
Didn't think I'd turn around, and say...

Cho:
It's too late to apologize, it's too late
I said it's too late to apologize, it's too late

V.II: I'd take another chance, take a fall
Take a shot for you
And I need you like a heart needs a beat
But it's nothin new
I loved you with a fire red-
Now it's turning blue, and you say...
"Sorry" like the angel heaven let me think was you
But I'm afraid...
Cho:-----

Bridge

It's too late to apologize, it's too late
I said it's too late to apologize, it's too late
It's too late to apologize, yeah
I said it's too late to apologize, yeah-
I'm holdin on your rope, got me ten feet off the ground...

Chords: [Am_F],[C_G] round-chords
For plucking part:
Am F C G
e-|---------0----------------0----------------0----------------3--------|
b-|-1~------------1------1---------1------1---------1------3---------3--|
G-|-----2-------2------2---2-----2----------0-----0----------0-----0----|
D-|---2---2---2------3---------3--------2-------2--------0-------0------|
A-|-0~--------------------------------3---------------------------------|
E-|----------------------------------------------------3----------------|


Bridge
e-|--------------------------------------------------|
b-|--------------------------------------------------|
G-|-12h13-13-13-13h12-12-12-12/15-15-15-15\12-12-12--|
D-|--------------------------------------------------|
A-|--------------------------------------------------|
E-|--------------------------------------------------|

e-|-----------------------------------------------|
b-|-------------------16----------16----------16--|
G-|-12h13h12----12h13----13-12h13----13-12h13-----|
D-|----------13-----------------------------------|
A-|-----------------------------------------------|
E-|-----------------------------------------------|

e-|--------------------------------------------------|
b-|-13/16-16-16-16h15-15-15-15/18-18-18-18\15-15-15--|
G-|--------------------------------------------------|
D-|--------------------------------------------------|
A-|--------------------------------------------------|
E-|--------------------------------------------------|

e-|-------------------18----------18----------18~~|
b-|-15h16h15----15h16----16-15h16----16-15h16-----|
G-|----------15-----------------------------------|
D-|-----------------------------------------------|
A-|-----------------------------------------------|
E-|-----------------------------------------------|






Ending:
Am F C
e-|------0------------0-------0-----|
b-|-1---------1------------1--1-----|
G-|----2----2-------2----2----0-----|
D-|-2------------3------------2-----|
A-|---------------------------3-----|
E-|---------------------------------|
I'm holding on your... Ground.
Back to top Go down
View user profile http://clubnypian.forumotion.com/profile.forum
 
for guitar players,,,
Back to top 
Page 1 of 1

Permissions in this forum:You cannot reply to topics in this forum
Clubnypian :: Relax Zone ( ေအးေဆး.. ေႏြးေထြး.. )  :: Music :: Rhythmic Rock Muuzizz-
Jump to: